  0
SECTION
  2
HEADER
  9
$ACADVER
  1
AC1015
  9
$ACADMAINTVER
 70
     6
  9
$DWGCODEPAGE
  3
ANSI_1254
  9
$INSBASE
 10
0.0
 20
0.0
 30
0.0
  9
$EXTMIN
 10
0.0
 20
0.0
 30
0.0
  9
$EXTMAX
 10
279.4
 20
215.9
 30
0.0
  9
$LIMMIN
 10
0.0
 20
0.0
  9
$LIMMAX
 10
279.4
 20
215.9
  9
$ORTHOMODE
 70
     0
  9
$REGENMODE
 70
     1
  9
$FILLMODE
 70
     1
  9
$QTEXTMODE
 70
     0
  9
$MIRRTEXT
 70
     1
  9
$LTSCALE
 40
1.0
  9
$ATTMODE
 70
     1
  9
$TEXTSIZE
 40
3.5
  9
$TRACEWID
 40
1.0
  9
$TEXTSTYLE
  7
Standard
  9
$CLAYER
  8
0
  9
$CELTYPE
  6
ByLayer
  9
$CECOLOR
 62
   256
  9
$CELTSCALE
 40
1.0
  9
$DISPSILH
 70
     0
  9
$DIMSCALE
 40
1.0
  9
$DIMASZ
 40
3.5
  9
$DIMEXO
 40
1.0
  9
$DIMDLI
 40
3.75
  9
$DIMRND
 40
0.0
  9
$DIMDLE
 40
0.0
  9
$DIMEXE
 40
1.0
  9
$DIMTP
 40
0.0
  9
$DIMTM
 40
0.0
  9
$DIMTXT
 40
3.5
  9
$DIMCEN
 40
2.5
  9
$DIMTSZ
 40
0.0
  9
$DIMTOL
 70
     0
  9
$DIMLIM
 70
     0
  9
$DIMTIH
 70
     1
  9
$DIMTOH
 70
     1
  9
$DIMSE1
 70
     0
  9
$DIMSE2
 70
     0
  9
$DIMTAD
 70
     1
  9
$DIMZIN
 70
     0
  9
$DIMBLK
  1

  9
$DIMASO
 70
     1
  9
$DIMSHO
 70
     1
  9
$DIMPOST
  1

  9
$DIMAPOST
  1

  9
$DIMALT
 70
     0
  9
$DIMALTD
 70
     3
  9
$DIMALTF
 40
0.0393700787
  9
$DIMLFAC
 40
1.0
  9
$DIMTOFL
 70
     1
  9
$DIMTVP
 40
0.0
  9
$DIMTIX
 70
     0
  9
$DIMSOXD
 70
     0
  9
$DIMSAH
 70
     0
  9
$DIMBLK1
  1

  9
$DIMBLK2
  1

  9
$DIMSTYLE
  2
ISO-25
  9
$DIMCLRD
 70
     0
  9
$DIMCLRE
 70
     0
  9
$DIMCLRT
 70
     0
  9
$DIMTFAC
 40
1.0
  9
$DIMGAP
 40
1.524
  9
$DIMJUST
 70
     0
  9
$DIMSD1
 70
     0
  9
$DIMSD2
 70
     0
  9
$DIMTOLJ
 70
     0
  9
$DIMTZIN
 70
     0
  9
$DIMALTZ
 70
     0
  9
$DIMALTTZ
 70
     0
  9
$DIMUPT
 70
     0
  9
$DIMDEC
 70
     2
  9
$DIMTDEC
 70
     2
  9
$DIMALTU
 70
     2
  9
$DIMALTTD
 70
     3
  9
$DIMTXSTY
  7
Standard
  9
$DIMAUNIT
 70
     0
  9
$DIMADEC
 70
     2
  9
$DIMALTRND
 40
0.0
  9
$DIMAZIN
 70
     0
  9
$DIMDSEP
 70
    44
  9
$DIMATFIT
 70
     3
  9
$DIMFRAC
 70
     0
  9
$DIMLDRBLK
  1

  9
$DIMLUNIT
 70
     2
  9
$DIMLWD
 70
    -2
  9
$DIMLWE
 70
    -2
  9
$DIMTMOVE
 70
     0
  9
$LUNITS
 70
     2
  9
$LUPREC
 70
     2
  9
$SKETCHINC
 40
1.0
  9
$FILLETRAD
 40
10.0
  9
$AUNITS
 70
     0
  9
$AUPREC
 70
     2
  9
$MENU
  1
.
  9
$ELEVATION
 40
0.0
  9
$PELEVATION
 40
0.0
  9
$THICKNESS
 40
0.0
  9
$LIMCHECK
 70
     0
  9
$CHAMFERA
 40
0.0
  9
$CHAMFERB
 40
0.0
  9
$CHAMFERC
 40
0.0
  9
$CHAMFERD
 40
0.0
  9
$SKPOLY
 70
     0
  9
$TDCREATE
 40
2460704.460230023
  9
$TDUCREATE
 40
2460704.335230023
  9
$TDUPDATE
 40
2460704.460230301
  9
$TDUUPDATE
 40
2460704.335230301
  9
$TDINDWG
 40
0.0000000116
  9
$TDUSRTIMER
 40
0.0000000116
  9
$USRTIMER
 70
     1
  9
$ANGBASE
 50
0.0
  9
$ANGDIR
 70
     0
  9
$PDMODE
 70
     0
  9
$PDSIZE
 40
-1.0
  9
$PLINEWID
 40
0.0
  9
$SPLFRAME
 70
     0
  9
$SPLINETYPE
 70
     6
  9
$SPLINESEGS
 70
     8
  9
$HANDSEED
  5
B7
  9
$SURFTAB1
 70
     6
  9
$SURFTAB2
 70
     6
  9
$SURFTYPE
 70
     6
  9
$SURFU
 70
     6
  9
$SURFV
 70
     6
  9
$UCSBASE
  2

  9
$UCSNAME
  2

  9
$UCSORG
 10
0.0
 20
0.0
 30
0.0
  9
$UCSXDIR
 10
1.0
 20
0.0
 30
0.0
  9
$UCSYDIR
 10
0.0
 20
1.0
 30
0.0
  9
$UCSORTHOREF
  2

  9
$UCSORTHOVIEW
 70
     0
  9
$UCSORGTOP
 10
0.0
 20
0.0
 30
0.0
  9
$UCSORGBOTTOM
 10
0.0
 20
0.0
 30
0.0
  9
$UCSORGLEFT
 10
0.0
 20
0.0
 30
0.0
  9
$UCSORGRIGHT
 10
0.0
 20
0.0
 30
0.0
  9
$UCSORGFRONT
 10
0.0
 20
0.0
 30
0.0
  9
$UCSORGBACK
 10
0.0
 20
0.0
 30
0.0
  9
$PUCSBASE
  2

  9
$PUCSNAME
  2

  9
$PUCSORG
 10
0.0
 20
0.0
 30
0.0
  9
$PUCSXDIR
 10
1.0
 20
0.0
 30
0.0
  9
$PUCSYDIR
 10
0.0
 20
1.0
 30
0.0
  9
$PUCSORTHOREF
  2

  9
$PUCSORTHOVIEW
 70
     0
  9
$PUCSORGTOP
 10
0.0
 20
0.0
 30
0.0
  9
$PUCSORGBOTTOM
 10
0.0
 20
0.0
 30
0.0
  9
$PUCSORGLEFT
 10
0.0
 20
0.0
 30
0.0
  9
$PUCSORGRIGHT
 10
0.0
 20
0.0
 30
0.0
  9
$PUCSORGFRONT
 10
0.0
 20
0.0
 30
0.0
  9
$PUCSORGBACK
 10
0.0
 20
0.0
 30
0.0
  9
$USERI1
 70
     0
  9
$USERI2
 70
     0
  9
$USERI3
 70
     0
  9
$USERI4
 70
     0
  9
$USERI5
 70
     0
  9
$USERR1
 40
0.0
  9
$USERR2
 40
0.0
  9
$USERR3
 40
0.0
  9
$USERR4
 40
0.0
  9
$USERR5
 40
0.0
  9
$WORLDVIEW
 70
     1
  9
$SHADEDGE
 70
     3
  9
$SHADEDIF
 70
    70
  9
$TILEMODE
 70
     1
  9
$MAXACTVP
 70
    64
  9
$PINSBASE
 10
0.0
 20
0.0
 30
0.0
  9
$PLIMCHECK
 70
     0
  9
$PEXTMIN
 10
1.0000000000E+20
 20
1.0000000000E+20
 30
1.0000000000E+20
  9
$PEXTMAX
 10
-1.0000000000E+20
 20
-1.0000000000E+20
 30
-1.0000000000E+20
  9
$PLIMMIN
 10
0.0
 20
0.0
  9
$PLIMMAX
 10
420.0
 20
297.0
  9
$UNITMODE
 70
     0
  9
$VISRETAIN
 70
     1
  9
$PLINEGEN
 70
     0
  9
$PSLTSCALE
 70
     1
  9
$TREEDEPTH
 70
  3020
  9
$CMLSTYLE
  2
Standard
  9
$CMLJUST
 70
     0
  9
$CMLSCALE
 40
20.0
  9
$PROXYGRAPHICS
 70
     1
  9
$MEASUREMENT
 70
     1
  9
$CELWEIGHT
370
    -1
  9
$ENDCAPS
280
     0
  9
$JOINSTYLE
280
     0
  9
$LWDISPLAY
290
     1
  9
$INSUNITS
 70
     4
  9
$HYPERLINKBASE
  1

  9
$STYLESHEET
  1

  9
$XEDIT
290
     1
  9
$CEPSNTYPE
380
     0
  9
$PSTYLEMODE
290
     1
  9
$FINGERPRINTGUID
  2
{fb86b28f-ddbf-42b2-84bd-7a95a15d9c3d}
  9
$VERSIONGUID
  2
{FAEB1C32-E019-11D5-929B-00C0DF256EC4}
  9
$EXTNAMES
290
     1
  9
$PSVPSCALE
 40
0.0
  9
$OLESTARTUP
290
     0
  0
ENDSEC
  0
SECTION
  2
CLASSES
  0
CLASS
  1
ACDBDICTIONARYWDFLT
  2
AcDbDictionaryWithDefault
  3
ObjectDBX Classes
 90
        0
280
     0
281
     0
  0
CLASS
  1
VISUALSTYLE
  2
AcDbVisualStyle
  3
ObjectDBX Classes
 90
     4095
280
     0
281
     0
  0
CLASS
  1
MATERIAL
  2
AcDbMaterial
  3
ObjectDBX Classes
 90
     1153
280
     0
281
     0
  0
CLASS
  1
SCALE
  2
AcDbScale
  3
ObjectDBX Classes
 90
     1153
280
     0
281
     0
  0
CLASS
  1
TABLESTYLE
  2
AcDbTableStyle
  3
ObjectDBX Classes
 90
     4095
280
     0
281
     0
  0
CLASS
  1
MLEADERSTYLE
  2
AcDbMLeaderStyle
  3
ACDB_MLEADERSTYLE_CLASS
 90
     4095
280
     0
281
     0
  0
CLASS
  1
SUN
  2
AcDbSun
  3
SCENEOE
 90
     1153
280
     0
281
     0
  0
CLASS
  1
ACDBPLACEHOLDER
  2
AcDbPlaceHolder
  3
ObjectDBX Classes
 90
        0
280
     0
281
     0
  0
CLASS
  1
LAYOUT
  2
AcDbLayout
  3
ObjectDBX Classes
 90
        0
280
     0
281
     0
  0
ENDSEC
  0
SECTION
  2
TABLES
  0
TABLE
  2
VPORT
  5
8
330
0
100
AcDbSymbolTable
 70
     1
  0
VPORT
  5
29
330
8
100
AcDbSymbolTableRecord
100
AcDbViewportTableRecord
  2
*Active
 70
     0
 10
0.0
 20
0.0
 11
1.0
 21
1.0
 12
139.7
 22
107.95
 13
0.0
 23
0.0
 14
10.0
 24
10.0
 15
10.0
 25
10.0
 16
0.0
 26
0.0
 36
1.0
 17
0.0
 27
0.0
 37
0.0
 40
215.9
 41
1.2941176471
 42
50.0
 43
0.0
 44
0.0
 50
0.0
 51
0.0
 71
     0
 72
  2000
 73
     1
 74
     3
 75
     0
 76
     0
 77
     0
 78
     0
281
     0
 65
     1
110
0.0
120
0.0
130
0.0
111
1.0
121
0.0
131
0.0
112
0.0
122
1.0
132
0.0
 79
     0
146
0.0
  0
ENDTAB
  0
TABLE
  2
LTYPE
  5
5
330
0
100
AcDbSymbolTable
 70
     6
  0
LTYPE
  5
14
330
5
100
AcDbSymbolTableRecord
100
AcDbLinetypeTableRecord
  2
ByBlock
 70
     0
  3

 72
    65
 73
     0
 40
0.0
  0
LTYPE
  5
15
330
5
100
AcDbSymbolTableRecord
100
AcDbLinetypeTableRecord
  2
ByLayer
 70
     0
  3

 72
    65
 73
     0
 40
0.0
  0
LTYPE
  5
16
330
5
100
AcDbSymbolTableRecord
100
AcDbLinetypeTableRecord
  2
Continuous
 70
     0
  3
Solid line
 72
    65
 73
     0
 40
0.0
  0
LTYPE
  5
6E
330
5
100
AcDbSymbolTableRecord
100
AcDbLinetypeTableRecord
  2
HIDDEN
 70
     0
  3
Hidden __ __ __ __ __ __ __ __ __ __ __ __ __ __
 72
    65
 73
     2
 40
1.905
 49
1.27
 74
     0
 49
-0.635
 74
     0
  0
LTYPE
  5
6F
330
5
100
AcDbSymbolTableRecord
100
AcDbLinetypeTableRecord
  2
PHANTOM
 70
     0
  3
Phantom ______  __  __  ______  __  __  ______
 72
    65
 73
     6
 40
12.7
 49
6.35
 74
     0
 49
-1.27
 74
     0
 49
1.27
 74
     0
 49
-1.27
 74
     0
 49
1.27
 74
     0
 49
-1.27
 74
     0
  0
LTYPE
  5
70
330
5
100
AcDbSymbolTableRecord
100
AcDbLinetypeTableRecord
  2
CENTER
 70
     0
  3
Center ____ _ ____ _ ____ _ ____ _ ____ _ ____
 72
    65
 73
     4
 40
10.16
 49
6.35
 74
     0
 49
-1.27
 74
     0
 49
1.27
 74
     0
 49
-1.27
 74
     0
  0
LTYPE
  5
71
330
5
100
AcDbSymbolTableRecord
100
AcDbLinetypeTableRecord
  2
CENTERX2
 70
     0
  3
Center (2x) ________  __  ________  __  _____
 72
    65
 73
     4
 40
20.32
 49
12.7
 74
     0
 49
-2.54
 74
     0
 49
2.54
 74
     0
 49
-2.54
 74
     0
  0
LTYPE
  5
72
330
5
100
AcDbSymbolTableRecord
100
AcDbLinetypeTableRecord
  2
DOT2
 70
     0
  3
Dot (.5x) ........................................
 72
    65
 73
     2
 40
0.635
 49
0.0
 74
     0
 49
-0.635
 74
     0
  0
ENDTAB
  0
TABLE
  2
LAYER
  5
2
330
0
100
AcDbSymbolTable
 70
    17
  0
LAYER
  5
10
330
2
100
AcDbSymbolTableRecord
100
AcDbLayerTableRecord
  2
0
 70
     0
 62
     7
  6
Continuous
370
    -3
390
F
  0
LAYER
  5
73
330
2
100
AcDbSymbolTableRecord
100
AcDbLayerTableRecord
  2
FORMAT
 70
     0
 62
     7
  6
Continuous
370
    -3
390
F
  0
LAYER
  5
74
330
2
100
AcDbSymbolTableRecord
100
AcDbLayerTableRecord
  2
YARDIMCI_GEOMETRI
 70
     0
 62
    -6
  6
Continuous
290
     0
370
    -3
390
F
  0
LAYER
  5
75
330
2
100
AcDbSymbolTableRecord
100
AcDbLayerTableRecord
  2
SAYFA_CERCEVESI
 70
     0
 62
     7
  6
Continuous
370
    25
390
F
  0
LAYER
  5
76
330
2
100
AcDbSymbolTableRecord
100
AcDbLayerTableRecord
  2
ANTET
 70
     0
 62
     7
  6
Continuous
370
    -3
390
F
  0
LAYER
  5
77
330
2
100
AcDbSymbolTableRecord
100
AcDbLayerTableRecord
  2
OLCU
 70
     0
 62
   150
  6
Continuous
370
    -3
390
F
  0
LAYER
  5
78
330
2
100
AcDbSymbolTableRecord
100
AcDbLayerTableRecord
  2
METIN
 70
     0
 62
    96
  6
Continuous
370
    -3
390
F
  0
LAYER
  5
79
330
2
100
AcDbSymbolTableRecord
100
AcDbLayerTableRecord
  2
BALON
 70
     0
 62
     5
  6
Continuous
370
    -3
390
F
  0
LAYER
  5
7A
330
2
100
AcDbSymbolTableRecord
100
AcDbLayerTableRecord
  2
VURGU
 70
     0
 62
     7
  6
Continuous
370
    -3
390
F
  0
LAYER
  5
7B
330
2
100
AcDbSymbolTableRecord
100
AcDbLayerTableRecord
  2
SILIK
 70
     0
 62
     7
  6
Continuous
370
    -3
390
F
  0
LAYER
  5
7C
330
2
100
AcDbSymbolTableRecord
100
AcDbLayerTableRecord
  2
MODEL
 70
     0
 62
     7
  6
Continuous
370
    -3
390
F
  0
LAYER
  5
7D
330
2
100
AcDbSymbolTableRecord
100
AcDbLayerTableRecord
  2
DETAYLANDıRMA
 70
     0
 62
   190
  6
Continuous
370
    -3
390
F
  0
LAYER
  5
7E
330
2
100
AcDbSymbolTableRecord
100
AcDbLayerTableRecord
  2
TOLERANS
 70
     0
 62
   230
  6
Continuous
370
    -3
390
F
  0
LAYER
  5
7F
330
2
100
AcDbSymbolTableRecord
100
AcDbLayerTableRecord
  2
MERKEZ_CIZGILERI
 70
     0
 62
    30
  6
Continuous
370
    -3
390
F
  0
LAYER
  5
80
330
2
100
AcDbSymbolTableRecord
100
AcDbLayerTableRecord
  2
KESIT-DETAY_CIZGILERI
 70
     0
 62
     7
  6
Continuous
370
    -3
390
F
  0
LAYER
  5
81
330
2
100
AcDbSymbolTableRecord
100
AcDbLayerTableRecord
  2
\U+041E\U+0421\U+0415\U+0412\U+042B\U+0415
 70
     0
 62
     7
  6
Continuous
370
    -3
390
F
  0
LAYER
  5
82
330
2
100
AcDbSymbolTableRecord
100
AcDbLayerTableRecord
  2
\U+0412\U+041E\U+0414\U+042F\U+041D\U+042B\U+0415_\U+0417\U+041D\U+0410\U+041A\U+0418
 70
     0
 62
    11
  6
Continuous
370
    -3
390
F
  0
ENDTAB
  0
TABLE
  2
STYLE
  5
3
330
0
100
AcDbSymbolTable
 70
     1
  0
STYLE
  5
11
330
3
100
AcDbSymbolTableRecord
100
AcDbTextStyleTableRecord
  2
Standard
 70
     0
 40
0.0
 41
1.0
 50
0.0
 71
     0
 42
3.5
  3
txt
  4

  0
ENDTAB
  0
TABLE
  2
VIEW
  5
6
330
0
100
AcDbSymbolTable
 70
     0
  0
ENDTAB
  0
TABLE
  2
UCS
  5
7
330
0
100
AcDbSymbolTable
 70
     0
  0
ENDTAB
  0
TABLE
  2
APPID
  5
9
330
0
100
AcDbSymbolTable
 70
     1
  0
APPID
  5
12
330
9
100
AcDbSymbolTableRecord
100
AcDbRegAppTableRecord
  2
ACAD
 70
     0
  0
ENDTAB
  0
TABLE
  2
DIMSTYLE
  5
A
330
0
100
AcDbSymbolTable
 70
     1
100
AcDbDimStyleTable
  0
DIMSTYLE
105
27
330
A
100
AcDbSymbolTableRecord
100
AcDbDimStyleTableRecord
  2
ISO-25
 70
     0
 41
2.5
 42
0.625
 43
3.75
 44
1.25
 73
     0
 74
     0
 77
     1
 78
     8
140
2.5
141
2.5
143
0.0393700787
147
0.625
171
     3
172
     1
178
     0
271
     2
272
     2
274
     3
278
    44
283
     0
284
     8
340
11
  0
ENDTAB
  0
TABLE
  2
BLOCK_RECORD
  5
1
330
0
100
AcDbSymbolTable
 70
     2
  0
BLOCK_RECORD
  5
1F
330
1
100
AcDbSymbolTableRecord
100
AcDbBlockTableRecord
  2
*Model_Space
340
22
  0
BLOCK_RECORD
  5
1B
330
1
100
AcDbSymbolTableRecord
100
AcDbBlockTableRecord
  2
*Paper_Space
340
1E
  0
BLOCK_RECORD
  5
23
330
1
100
AcDbSymbolTableRecord
100
AcDbBlockTableRecord
  2
*Paper_Space0
340
26
  0
BLOCK_RECORD
  5
85
330
1
100
AcDbSymbolTableRecord
100
AcDbBlockTableRecord
  2
SW_CENTERMARKSYMBOL_0
340
0
102
{BLKREFS
331
90
102
}
  0
ENDTAB
  0
ENDSEC
  0
SECTION
  2
BLOCKS
  0
BLOCK
  5
20
330
1F
100
AcDbEntity
  8
0
100
AcDbBlockBegin
  2
*Model_Space
 70
     0
 10
0.0
 20
0.0
 30
0.0
  3
*Model_Space
  1

  0
ENDBLK
  5
21
330
1F
100
AcDbEntity
  8
0
100
AcDbBlockEnd
  0
BLOCK
  5
1C
330
1B
100
AcDbEntity
 67
     1
  8
0
100
AcDbBlockBegin
  2
*Paper_Space
 70
     0
 10
0.0
 20
0.0
 30
0.0
  3
*Paper_Space
  1

  0
ENDBLK
  5
1D
330
1B
100
AcDbEntity
 67
     1
  8
0
100
AcDbBlockEnd
  0
BLOCK
  5
24
330
23
100
AcDbEntity
  8
0
100
AcDbBlockBegin
  2
*Paper_Space0
 70
     0
 10
0.0
 20
0.0
 30
0.0
  3
*Paper_Space0
  1

  0
ENDBLK
  5
25
330
23
100
AcDbEntity
  8
0
100
AcDbBlockEnd
  0
BLOCK
  5
86
330
85
100
AcDbEntity
  8
0
100
AcDbBlockBegin
  2
SW_CENTERMARKSYMBOL_0
 70
     0
 10
0.0
 20
0.0
 30
0.0
  3
SW_CENTERMARKSYMBOL_0
  1

  0
LINE
  5
88
330
85
100
AcDbEntity
  8
FORMAT
 62
     0
100
AcDbLine
 10
0.0
 20
0.0
 30
0.0
 11
0.0
 21
2.5
 31
0.0
  0
LINE
  5
89
330
85
100
AcDbEntity
  8
FORMAT
 62
     0
100
AcDbLine
 10
0.0
 20
0.0
 30
0.0
 11
-2.5
 21
0.0
 31
0.0
  0
LINE
  5
8A
330
85
100
AcDbEntity
  8
FORMAT
 62
     0
100
AcDbLine
 10
0.0
 20
0.0
 30
0.0
 11
0.0
 21
-2.5
 31
0.0
  0
LINE
  5
8B
330
85
100
AcDbEntity
  8
FORMAT
 62
     0
100
AcDbLine
 10
0.0
 20
0.0
 30
0.0
 11
2.5
 21
0.0
 31
0.0
  0
LINE
  5
8C
330
85
100
AcDbEntity
  8
FORMAT
 62
     0
100
AcDbLine
 10
0.0
 20
5.0
 30
0.0
 11
0.0
 21
102.5
 31
0.0
  0
LINE
  5
8D
330
85
100
AcDbEntity
  8
FORMAT
 62
     0
100
AcDbLine
 10
-5.0
 20
0.0
 30
0.0
 11
-102.5
 21
0.0
 31
0.0
  0
LINE
  5
8E
330
85
100
AcDbEntity
  8
FORMAT
 62
     0
100
AcDbLine
 10
0.0
 20
-5.0
 30
0.0
 11
0.0
 21
-102.5
 31
0.0
  0
LINE
  5
8F
330
85
100
AcDbEntity
  8
FORMAT
 62
     0
100
AcDbLine
 10
5.0
 20
0.0
 30
0.0
 11
102.5
 21
0.0
 31
0.0
  0
ENDBLK
  5
87
330
85
100
AcDbEntity
  8
0
100
AcDbBlockEnd
  0
ENDSEC
  0
SECTION
  2
ENTITIES
  0
CIRCLE
  5
83
330
1F
100
AcDbEntity
  8
0
  6
Continuous
 62
     7
370
    25
100
AcDbCircle
 10
141.5204150627
 20
107.9978248159
 30
0.0
 40
100.0
  0
CIRCLE
  5
84
330
1F
100
AcDbEntity
  8
0
  6
Continuous
 62
     7
370
    25
100
AcDbCircle
 10
141.5204150627
 20
107.9978248159
 30
0.0
 40
88.10000000000002
  0
INSERT
  5
90
330
1F
100
AcDbEntity
  8
FORMAT
 62
     7
100
AcDbBlockReference
  2
SW_CENTERMARKSYMBOL_0
 10
141.5204150627
 20
107.9978248159
 30
0.0
  0
ARC
  5
91
330
1F
100
AcDbEntity
  8
0
  6
Continuous
 62
     7
370
    25
100
AcDbCircle
 10
138.4109267895
 20
181.0802390101
 30
0.0
 40
399.9999999999999
100
AcDbArc
 50
255.9820254957
 51
270.0
  0
ARC
  5
92
330
1F
100
AcDbEntity
  8
0
  6
Continuous
 62
     7
370
    25
100
AcDbCircle
 10
144.6299033359
 20
181.0802390101
 30
0.0
 40
399.9999999999999
100
AcDbArc
 50
270.0
 51
284.0179745043
  0
LINE
  5
93
330
1F
100
AcDbEntity
  8
0
  6
Continuous
 62
     7
370
    25
100
AcDbLine
 10
138.4109267895
 20
-218.9197609899
 30
0.0
 11
144.6299033359
 21
-218.9197609899
 31
0.0
  0
LINE
  5
94
330
1F
100
AcDbEntity
  8
0
  6
Continuous
 62
     7
370
    25
100
AcDbLine
 10
41.5204150627
 20
-80.5997189637
 30
0.0
 11
41.5204150627
 21
-207.0076746606
 31
0.0
  0
LINE
  5
95
330
1F
100
AcDbEntity
  8
0
  6
Continuous
 62
     7
370
    25
100
AcDbLine
 10
241.5204150627
 20
-207.0076746606
 30
0.0
 11
241.5204150627
 21
-80.5997189637
 31
0.0
  0
LINE
  5
96
330
1F
100
AcDbEntity
  8
0
  6
Continuous
 62
     7
370
    25
100
AcDbLine
 10
141.5204150627
 20
-207.0076746606
 30
0.0
 11
241.5204150627
 21
-207.0076746606
 31
0.0
  0
LINE
  5
97
330
1F
100
AcDbEntity
  8
0
  6
Continuous
 62
     7
370
    25
100
AcDbLine
 10
41.5204150627
 20
-207.0076746606
 30
0.0
 11
141.5204150627
 21
-207.0076746606
 31
0.0
  0
LINE
  5
98
330
1F
100
AcDbEntity
  8
0
  6
Continuous
 62
     7
370
    25
100
AcDbLine
 10
141.5204150627
 20
-80.5997189637
 30
0.0
 11
241.5204150627
 21
-80.5997189637
 31
0.0
  0
LINE
  5
99
330
1F
100
AcDbEntity
  8
0
  6
Continuous
 62
     7
370
    25
100
AcDbLine
 10
41.5204150627
 20
-80.5997189637
 30
0.0
 11
141.5204150627
 21
-80.5997189637
 31
0.0
  0
LINE
  5
9A
330
1F
100
AcDbEntity
  8
0
  6
Continuous
 62
     7
370
    25
100
AcDbLine
 10
241.5204150627
 20
294.3226503555
 30
0.0
 11
241.5204150627
 21
420.7306060524
 31
0.0
  0
LINE
  5
9B
330
1F
100
AcDbEntity
  8
0
  6
Continuous
 62
     7
370
    25
100
AcDbLine
 10
41.5204150627
 20
420.7306060524
 30
0.0
 11
41.5204150627
 21
294.3226503555
 31
0.0
  0
ARC
  5
9C
330
1F
100
AcDbEntity
  8
0
  6
Continuous
 62
     7
370
    25
100
AcDbCircle
 10
144.6299033359
 20
32.6426923817
 30
0.0
 40
399.9999999999999
100
AcDbArc
 50
75.9820254957
 51
90.0
  0
ARC
  5
9D
330
1F
100
AcDbEntity
  8
0
  6
Continuous
 62
     7
370
    25
100
AcDbCircle
 10
138.4109267895
 20
32.6426923817
 30
0.0
 40
399.9999999999999
100
AcDbArc
 50
90.0
 51
104.0179745043
  0
LINE
  5
9E
330
1F
100
AcDbEntity
  8
0
  6
Continuous
 62
     7
370
    25
100
AcDbLine
 10
144.6299033359
 20
432.6426923817
 30
0.0
 11
138.4109267895
 21
432.6426923817
 31
0.0
  0
LINE
  5
9F
330
1F
100
AcDbEntity
  8
0
  6
Continuous
 62
     7
370
    25
100
AcDbLine
 10
241.5204150627
 20
294.3226503555
 30
0.0
 11
41.5204150627
 21
294.3226503555
 31
0.0
  0
LINE
  5
A0
330
1F
100
AcDbEntity
  8
0
  6
Continuous
 62
     7
370
    25
100
AcDbLine
 10
241.5204150627
 20
420.7306060524
 30
0.0
 11
41.5204150627
 21
420.7306060524
 31
0.0
  0
ARC
  5
A1
330
1F
100
AcDbEntity
  8
0
  6
Continuous
 62
     7
370
    25
100
AcDbCircle
 10
696.4626614326
 20
111.1073130891
 30
0.0
 40
399.9999999999999
100
AcDbArc
 50
165.9820254957
 51
180.0
  0
ARC
  5
A2
330
1F
100
AcDbEntity
  8
0
  6
Continuous
 62
     7
370
    25
100
AcDbCircle
 10
696.4626614326
 20
104.8883365428
 30
0.0
 40
399.9999999999999
100
AcDbArc
 50
180.0
 51
194.0179745043
  0
LINE
  5
A3
330
1F
100
AcDbEntity
  8
0
  6
Continuous
 62
     7
370
    25
100
AcDbLine
 10
296.4626614326
 20
111.1073130891
 30
0.0
 11
296.4626614326
 21
104.8883365428
 31
0.0
  0
LINE
  5
A4
330
1F
100
AcDbEntity
  8
0
  6
Continuous
 62
     7
370
    25
100
AcDbLine
 10
434.7827034588
 20
207.9978248159
 30
0.0
 11
308.3747477619
 21
207.9978248159
 31
0.0
  0
LINE
  5
A5
330
1F
100
AcDbEntity
  8
0
  6
Continuous
 62
     7
370
    25
100
AcDbLine
 10
308.3747477619
 20
7.9978248159
 30
0.0
 11
434.7827034588
 21
7.9978248159
 31
0.0
  0
LINE
  5
A6
330
1F
100
AcDbEntity
  8
0
  6
Continuous
 62
     7
370
    25
100
AcDbLine
 10
308.3747477619
 20
207.9978248159
 30
0.0
 11
308.3747477619
 21
7.9978248159
 31
0.0
  0
LINE
  5
A7
330
1F
100
AcDbEntity
  8
0
  6
Continuous
 62
     7
370
    25
100
AcDbLine
 10
434.7827034588
 20
207.9978248159
 30
0.0
 11
434.7827034588
 21
7.9978248159
 31
0.0
  0
ARC
  5
A8
330
1F
100
AcDbEntity
  8
0
  6
Continuous
 62
     7
370
    25
100
AcDbCircle
 10
-466.6679506672
 20
104.8883365428
 30
0.0
 40
399.9999999999999
100
AcDbArc
 50
345.9820254957
 51
0.0
  0
ARC
  5
A9
330
1F
100
AcDbEntity
  8
0
  6
Continuous
 62
     7
370
    25
100
AcDbCircle
 10
-466.6679506672
 20
111.1073130891
 30
0.0
 40
399.9999999999999
100
AcDbArc
 50
0.0
 51
14.0179745043
  0
LINE
  5
AA
330
1F
100
AcDbEntity
  8
0
  6
Continuous
 62
     7
370
    25
100
AcDbLine
 10
-66.6679506672
 20
104.8883365428
 30
0.0
 11
-66.6679506672
 21
111.1073130891
 31
0.0
  0
LINE
  5
AB
330
1F
100
AcDbEntity
  8
0
  6
Continuous
 62
     7
370
    25
100
AcDbLine
 10
-204.9879926934
 20
7.9978248159
 30
0.0
 11
-78.5800369965
 21
7.9978248159
 31
0.0
  0
LINE
  5
AC
330
1F
100
AcDbEntity
  8
0
  6
Continuous
 62
     7
370
    25
100
AcDbLine
 10
-78.5800369965
 20
207.9978248159
 30
0.0
 11
-204.9879926934
 21
207.9978248159
 31
0.0
  0
LINE
  5
AD
330
1F
100
AcDbEntity
  8
0
  6
Continuous
 62
     7
370
    25
100
AcDbLine
 10
-78.5800369965
 20
7.9978248159
 30
0.0
 11
-78.5800369965
 21
207.9978248159
 31
0.0
  0
LINE
  5
AE
330
1F
100
AcDbEntity
  8
0
  6
Continuous
 62
     7
370
    25
100
AcDbLine
 10
-204.9879926934
 20
7.9978248159
 30
0.0
 11
-204.9879926934
 21
207.9978248159
 31
0.0
  0
LINE
  5
AF
330
1F
100
AcDbEntity
  8
0
  6
Continuous
 62
     7
370
    25
100
AcDbLine
 10
307.0219394531
 20
-234.1544073054
 30
0.0
 11
396.4058621224
 21
-285.7546475203
 31
0.0
  0
LINE
  5
B0
330
1F
100
AcDbEntity
  8
0
  6
Continuous
 62
     7
370
    25
100
AcDbLine
 10
496.397735386
 20
-112.5448750442
 30
0.0
 11
407.0138127167
 21
-60.9446348293
 31
0.0
  0
LWPOLYLINE
  5
B1
330
1F
100
AcDbEntity
  8
0
  6
Continuous
 62
     7
370
    25
100
AcDbPolyline
 90
      136
 70
   128
 43
0.0
 10
357.0178760849
 20
-229.2036022559
 10
360.3077124601
 20
-227.215997863
 10
363.5904237823
 20
-225.0558536214
 10
366.8589004297
 20
-222.7278479222
 10
370.1060636097
 20
-220.2370227076
 10
373.32488069
 20
-217.5887725503
 10
376.5083804296
 20
-214.7888329704
 10
379.6496680768
 20
-211.8432680136
 10
382.7419403021
 20
-208.7584571176
 10
385.7784999325
 20
-205.541081296
 10
388.752770456
 20
-202.1981086683
 10
391.6583102649
 20
-198.7367793688
 10
394.488826607
 20
-195.1645898661
 10
397.2381892142
 20
-191.4892767272
 10
399.9004435793
 20
-187.7187998619
 10
402.4698238521
 20
-183.8613252835
 10
404.9407653272
 20
-179.9252074229
 10
407.3079164956
 20
-175.918971035
 10
409.5661506348
 20
-171.8512927358
 10
411.7105769127
 20
-167.7309822105
 10
413.7365509793
 20
-163.5669631344
 10
415.6396850261
 20
-159.3682538454
 10
417.4158572885
 20
-155.143947813
 10
419.0612209728
 20
-150.9031939434
 10
420.5722125877
 20
-146.6551767651
 10
421.9455596619
 20
-142.4090965375
 10
423.1782878313
 20
-138.1741493247
 10
424.2677272813
 20
-133.9595070794
 10
425.2115185286
 20
-129.7742977782
 10
426.0076175315
 20
-125.6275856526
 10
426.6543001169
 20
-121.5283515575
 10
427.1501657143
 20
-117.4854735213
 10
427.4941403892
 20
-113.5077075175
 10
427.685479169
 20
-109.6036685015
 10
427.7237676566
 20
-105.7818117525
 10
427.6089229277
 20
-102.0504145612
 10
427.3411937103
 20
-98.417558303
 10
426.9211598463
 20
-94.8911109355
 10
426.3497310355
 20
-91.4787099586
 10
425.6281448655
 20
-88.1877458728
 10
424.7579641313
 20
-85.0253461736
 10
423.7410734505
 20
-81.9983599145
 10
422.579675182
 20
-79.1133428738
 10
421.2762846557
 20
-76.3765433558
 10
419.8337247254
 20
-73.793888659
 10
418.2551196545
 20
-71.3709722383
 10
416.5438883502
 20
-69.1130415912
 10
414.7037369584
 20
-67.0249868926
 10
412.7386508372
 20
-65.111330404
 10
410.6528859257
 20
-63.3762166793
 10
408.4509595262
 20
-61.8234035885
 10
406.1376405209
 20
-60.4562541789
 10
403.7179390436
 20
-59.2777293917
 10
401.1970956291
 20
-58.2903816491
 10
398.5805698627
 20
-57.4963493266
 10
395.8740285566
 20
-56.8973521213
 10
393.0833334767
 20
-56.4946873278
 10
390.2145286469
 20
-56.2892270283
 10
387.2738272599
 20
-56.2814162042
 10
384.2675982199
 20
-56.4712717719
 10
381.2023523497
 20
-56.8583825465
 10
378.0847282892
 20
-57.4419101323
 10
374.921478118
 20
-58.2205907385
 10
371.7194527314
 20
-59.1927379163
 10
368.4855870036
 20
-60.3562462113
 10
365.2268847675
 20
-61.7085957238
 10
361.9504036465
 20
-63.2468575658
 10
358.6632397692
 20
-64.9677002046
 10
355.3725124006
 20
-66.8673966783
 10
352.0853485233
 20
-68.9418326674
 10
348.8088674024
 20
-71.1865154055
 10
345.5501651663
 20
-73.5965834095
 10
342.3162994384
 20
-76.1668170089
 10
339.1142740519
 20
-78.89164965
 10
335.9510238806
 20
-81.765179952
 10
332.8333998201
 20
-84.7811844883
 10
329.7681539499
 20
-87.9331312644
 10
326.7619249099
 20
-91.2141938658
 10
323.8212235229
 20
-94.6172662412
 10
320.9524186932
 20
-98.1349780938
 10
318.1617236132
 20
-101.759710843
 10
315.4551823072
 20
-105.4836141248
 10
312.8386565408
 20
-109.2986227939
 10
310.3178131262
 20
-113.1964743911
 10
307.898111649
 20
-117.1687270377
 10
305.5847926437
 20
-121.2067777191
 10
303.3828662441
 20
-125.3018809167
 10
301.2971013326
 20
-129.4451675488
 10
299.3320152115
 20
-133.6276641792
 10
297.4918638197
 20
-137.8403124516
 10
295.7806325153
 20
-142.0739887077
 10
294.2020274445
 20
-146.3195237477
 10
292.7594675141
 20
-150.5677226881
 10
291.4560769878
 20
-154.8093848757
 10
290.2946787193
 20
-159.035323815
 10
289.2777880385
 20
-163.2363870632
 10
288.4076073043
 20
-167.4034760527
 10
287.6860211343
 20
-171.5275657967
 10
287.1145923236
 20
-175.5997244352
 10
286.6945584596
 20
-179.6111325793
 10
286.4268292422
 20
-183.5531024123
 10
286.3119845132
 20
-187.4170965053
 10
286.3502730008
 20
-191.1947463075
 10
286.5416117807
 20
-194.8778702706
 10
286.8855864556
 20
-198.4584915682
 10
287.3814520529
 20
-201.928855372
 10
288.0281346383
 20
-205.2814456468
 10
288.8242336412
 20
-208.5090014284
 10
289.7680248885
 20
-211.6045325499
 10
290.8574643385
 20
-214.5613347801
 10
292.0901925079
 20
-217.3730043438
 10
293.4635395821
 20
-220.0334517908
 10
294.974531197
 20
-222.5369151844
 10
296.6198948813
 20
-224.8779725802
 10
298.3960671437
 20
-227.0515537694
 10
300.2992011905
 20
-229.052951259
 10
302.3251752572
 20
-230.8778304678
 10
304.469601535
 20
-232.5222391137
 10
306.7278356743
 20
-233.9826157737
 10
309.0949868426
 20
-235.2557975974
 10
311.5659283177
 20
-236.3390271562
 10
314.1353085906
 20
-237.2299584162
 10
316.7975629557
 20
-237.9266618187
 10
319.5469255629
 20
-238.4276284593
 10
322.377441905
 20
-238.7317733557
 10
325.2829817139
 20
-238.8384377978
 10
328.2572522373
 20
-238.7473907743
 10
331.2938118677
 20
-238.4588294726
 10
334.3860840931
 20
-237.9733788523
 10
337.5273717403
 20
-237.2920902915
 10
340.7108714798
 20
-236.4164393092
 10
343.9296885601
 20
-235.3483223707
 10
347.1768517402
 20
-234.0900527794
 10
350.4453283876
 20
-232.6443556669
 10
353.7280397097
 20
-231.0143620914
 10
357.0178760849
 20
-229.2036022559
  0
LWPOLYLINE
  5
B2
330
1F
100
AcDbEntity
  8
0
  6
Continuous
 62
     7
370
    25
100
AcDbPolyline
 90
       52
 70
   128
 43
0.0
 10
446.4017987542
 20
-280.8038424708
 10
449.6916351293
 20
-278.816238078
 10
452.9743464515
 20
-276.6560938363
 10
456.2428230989
 20
-274.3280881372
 10
459.489986279
 20
-271.8372629226
 10
462.7088033593
 20
-269.1890127653
 10
465.8923030988
 20
-266.3890731854
 10
469.033590746
 20
-263.4435082285
 10
472.1258629714
 20
-260.3586973326
 10
475.1624226018
 20
-257.1413215109
 10
478.1366931252
 20
-253.7983488833
 10
481.0422329341
 20
-250.3370195838
 10
483.8727492762
 20
-246.7648300811
 10
486.6221118834
 20
-243.0895169422
 10
489.2843662485
 20
-239.3190400768
 10
491.8537465214
 20
-235.4615654984
 10
494.3246879965
 20
-231.5254476379
 10
496.6918391648
 20
-227.51921125
 10
498.950073304
 20
-223.4515329507
 10
501.0944995819
 20
-219.3312224255
 10
503.1204736486
 20
-215.1672033493
 10
505.0236076954
 20
-210.9684940604
 10
506.7997799577
 20
-206.744188028
 10
508.4451436421
 20
-202.5034341584
 10
509.956135257
 20
-198.2554169801
 10
511.3294823311
 20
-194.0093367524
 10
512.5622105006
 20
-189.7743895396
 10
513.6516499506
 20
-185.5597472944
 10
514.5954411979
 20
-181.3745379932
 10
515.3915402008
 20
-177.2278258675
 10
516.0382227862
 20
-173.1285917725
 10
516.5340883835
 20
-169.0857137363
 10
516.8780630584
 20
-165.1079477325
 10
517.0694018382
 20
-161.2039087165
 10
517.1076903259
 20
-157.3820519675
 10
516.9928455969
 20
-153.6506547761
 10
516.7251163795
 20
-150.0177985179
 10
516.3050825155
 20
-146.4913511504
 10
515.7336537047
 20
-143.0789501735
 10
515.0120675348
 20
-139.7879860878
 10
514.1418868005
 20
-136.6255863886
 10
513.1249961198
 20
-133.5986001295
 10
511.9635978512
 20
-130.7135830887
 10
510.660207325
 20
-127.9767835708
 10
509.2176473946
 20
-125.394128874
 10
507.6390423237
 20
-122.9712124533
 10
505.9278110194
 20
-120.7132818061
 10
504.0876596276
 20
-118.6252271075
 10
502.1225735065
 20
-116.711570619
 10
500.036808595
 20
-114.9764568943
 10
497.8348821954
 20
-113.4236438034
 10
496.397735386
 20
-112.5448750442
  0
LWPOLYLINE
  5
B3
330
1F
100
AcDbEntity
  8
0
  6
Continuous
 62
     7
370
    25
100
AcDbPolyline
 90
       18
 70
   128
 43
0.0
 10
396.4058621224
 20
-285.7546475203
 10
398.4789095119
 20
-286.8560378123
 10
400.949850987
 20
-287.9392673711
 10
403.5192312598
 20
-288.8301986312
 10
406.1814856249
 20
-289.5269020337
 10
408.9308482321
 20
-290.0278686742
 10
411.7613645742
 20
-290.3320135706
 10
414.6669043831
 20
-290.4386780128
 10
417.6411749066
 20
-290.3476309892
 10
420.677734537
 20
-290.0590696875
 10
423.7700067623
 20
-289.5736190673
 10
426.9112944095
 20
-288.8923305064
 10
430.094794149
 20
-288.0166795242
 10
433.3136112293
 20
-286.9485625857
 10
436.5607744094
 20
-285.6902929943
 10
439.8292510568
 20
-284.2445958819
 10
443.111962379
 20
-282.6146023063
 10
446.4017987542
 20
-280.8038424708
  0
LWPOLYLINE
  5
B4
330
1F
100
AcDbEntity
  8
0
  6
Continuous
 62
     7
370
    25
100
AcDbPolyline
 90
      128
 70
   128
 43
0.0
 10
357.0178760849
 20
-219.4867665945
 10
360.0986503337
 20
-217.6202522297
 10
363.1718854116
 20
-215.582263044
 10
366.2300605974
 20
-213.3777863383
 10
369.2656920241
 20
-211.0122168365
 10
372.2713509928
 20
-208.4913434837
 10
375.2396821523
 20
-205.8213352793
 10
378.1634214989
 20
-203.0087261808
 10
381.0354141525
 20
-200.060399114
 10
383.8486318658
 20
-196.9835691293
 10
386.5961902236
 20
-193.7857657453
 10
389.2713654903
 20
-190.4748145227
 10
391.8676110636
 20
-187.0588179139
 10
394.3785734956
 20
-183.5461354351
 10
396.7981080404
 20
-179.945363209
 10
399.1202936916
 20
-176.2653129285
 10
401.3394476718
 20
-172.5149902934
 10
403.4501393393
 20
-168.7035729715
 10
405.4472034778
 20
-164.8403881399
 10
407.3257529369
 20
-160.9348896591
 10
409.0811905911
 20
-156.9966349383
 10
410.7092205904
 20
-153.0352615468
 10
412.2058588726
 20
-149.0604636291
 10
413.5674429129
 20
-145.0819681818
 10
414.7906406872
 20
-141.1095112499
 10
415.8724588254
 20
-137.1528141011
 10
416.8102499372
 20
-133.2215594365
 10
417.6017190908
 20
-129.325367695
 10
418.2449294284
 20
-125.4737735106
 10
418.7383069065
 20
-121.6762023798
 10
419.0806441479
 20
-117.9419475954
 10
419.2711033958
 20
-114.2801475046
 10
419.3092185647
 20
-110.699763146
 10
419.1948963802
 20
-107.20955632
 10
418.928416608
 20
-103.8180681476
 10
418.5104313687
 20
-100.5335981686
 10
417.9419635422
 20
-97.3641840314
 10
417.2244042646
 20
-94.3175818236
 10
416.3595095236
 20
-91.4012470913
 10
415.3493958617
 20
-88.6223165943
 10
414.1965351961
 20
-85.9875908411
 10
412.9037487702
 20
-83.5035174472
 10
411.4742002489
 20
-81.1761753565
 10
409.9113879771
 20
-79.011259965
 10
408.2191364182
 20
-77.0140691834
 10
406.4015867955
 20
-75.1894904724
 10
404.4631869573
 20
-73.5419888817
 10
402.4086804929
 20
-72.0755961238
 10
400.243095124
 20
-70.7939007075
 10
397.9717304007
 20
-69.7000391563
 10
395.6001447333
 20
-68.7966883327
 10
393.1341417891
 20
-68.0860588875
 10
390.5797562908
 20
-67.5698898501
 10
387.9432392475
 20
-67.2494443726
 10
385.2310426584
 20
-67.1255066387
 10
382.449803723
 20
-67.1983799449
 10
379.6063285989
 20
-67.467885958
 10
376.7075757464
 20
-67.9333651517
 10
373.7606388994
 20
-68.5936784202
 10
370.7727297061
 20
-69.4472098665
 10
367.7511600812
 20
-70.4918707559
 10
364.7033243117
 20
-71.7251046284
 10
361.6366809625
 20
-73.1438935539
 10
358.5587346238
 20
-74.7447655181
 10
355.4770175461
 20
-76.5238029192
 10
352.3990712074
 20
-78.4766521545
 10
349.3324278582
 20
-80.5985342747
 10
346.2845920887
 20
-82.8842566786
 10
343.2630224637
 20
-85.3282258206
 10
340.2751132705
 20
-87.9244608985
 10
337.3281764235
 20
-90.6666084901
 10
334.4294235709
 20
-93.5479581007
 10
331.5859484469
 20
-96.5614585851
 10
328.8047095115
 20
-99.6997354025
 10
326.0925129223
 20
-102.9551086636
 10
323.4559958791
 20
-106.3196119247
 10
320.9016103807
 20
-109.7850116824
 10
318.4356074366
 20
-113.3428275228
 10
316.0640217691
 20
-116.9843528744
 10
313.7926570459
 20
-120.7006763144
 10
311.6270716769
 20
-124.4827033766
 10
309.5725652126
 20
-128.3211788071
 10
307.6341653744
 20
-132.2067092132
 10
305.8166157516
 20
-136.1297860509
 10
304.1243641928
 20
-140.0808088938
 10
302.5615519209
 20
-144.0501089269
 10
301.1320033997
 20
-148.027972608
 10
299.8392169738
 20
-152.0046654379
 10
298.6863563082
 20
-155.970455783
 10
297.6762426462
 20
-159.9156386898
 10
296.8113479052
 20
-163.8305596346
 10
296.0937886276
 20
-167.7056381497
 10
295.5253208011
 20
-171.5313912687
 10
295.1073355618
 20
-175.2984567327
 10
294.8408557896
 20
-178.9976159012
 10
294.7265336052
 20
-182.6198163118
 10
294.764648774
 20
-186.1561938331
 10
294.955108022
 20
-189.5980943569
 10
295.2974452633
 20
-192.9370949756
 10
295.7908227415
 20
-196.1650245953
 10
296.4340330791
 20
-199.2739839314
 10
297.2255022326
 20
-202.2563648392
 10
298.1632933445
 20
-205.1048689331
 10
299.2451114827
 20
-207.812525446
 10
300.4683092569
 20
-210.3727082889
 10
301.8298932973
 20
-212.7791522653
 10
303.3265315794
 20
-215.0259684036
 10
304.9545615787
 20
-217.107658368
 10
306.709999233
 20
-219.0191279146
 10
308.588548692
 20
-220.7556993569
 10
310.5856128306
 20
-222.3131230136
 10
312.696304498
 20
-223.6875876082
 10
314.9154584782
 20
-224.8757295954
 10
317.2376441294
 20
-225.8746413926
 10
319.6571786743
 20
-226.6818784953
 10
322.1681411063
 20
-227.2954654591
 10
324.7643866796
 20
-227.7139007338
 10
327.4395619462
 20
-227.9361603382
 10
330.1871203041
 20
-227.9617003658
 10
333.0003380173
 20
-227.7904583159
 10
335.8723306709
 20
-227.4228532464
 10
338.7960700176
 20
-226.8597847486
 10
341.7644011771
 20
-226.1026307455
 10
344.7700601458
 20
-225.1532441197
 10
347.8056915724
 20
-224.0139481794
 10
350.8638667583
 20
-222.6875309727
 10
353.9371018362
 20
-221.1772384648
 10
357.0178760849
 20
-219.4867665945
  0
ARC
  5
B5
330
1F
100
AcDbEntity
  8
0
  6
Continuous
 62
     7
370
    25
100
AcDbCircle
 10
524.5610251
 20
-244.2701222378
 30
0.0
 40
148.811025853055
100
AcDbArc
 50
138.2534573902
 51
161.7519191425
  0
ENDSEC
  0
SECTION
  2
OBJECTS
  0
DICTIONARY
  5
C
330
0
100
AcDbDictionary
281
     1
  3
ACAD_GROUP
350
D
  3
ACAD_LAYOUT
350
1A
  3
ACAD_MLINESTYLE
350
17
  3
ACAD_PLOTSETTINGS
350
19
  3
ACAD_PLOTSTYLENAME
350
E
  3
ACAD_SCALELIST
350
47
  3
DWGPROPS
350
B6
  0
DICTIONARY
  5
D
102
{ACAD_REACTORS
330
C
102
}
330
C
100
AcDbDictionary
281
     1
  0
DICTIONARY
  5
1A
102
{ACAD_REACTORS
330
C
102
}
330
C
100
AcDbDictionary
281
     1
  3
Layout1
350
1E
  3
Layout2
350
26
  3
Model
350
22
  0
DICTIONARY
  5
17
102
{ACAD_REACTORS
330
C
102
}
330
C
100
AcDbDictionary
281
     1
  3
Standard
350
18
  0
DICTIONARY
  5
19
102
{ACAD_REACTORS
330
C
102
}
330
C
100
AcDbDictionary
281
     1
  0
ACDBDICTIONARYWDFLT
  5
E
102
{ACAD_REACTORS
330
C
102
}
330
C
100
AcDbDictionary
281
     1
  3
Normal
350
F
100
AcDbDictionaryWithDefault
340
F
  0
DICTIONARY
  5
47
102
{ACAD_REACTORS
330
C
102
}
330
C
100
AcDbDictionary
281
     1
  3
A0
350
48
  3
A1
350
49
  3
A2
350
4A
  3
A3
350
4B
  3
A4
350
4C
  3
A5
350
4D
  3
A6
350
4E
  3
A7
350
4F
  3
A8
350
50
  3
A9
350
51
  3
B0
350
52
  3
B1
350
53
  3
B2
350
54
  3
B3
350
55
  3
B4
350
56
  3
B5
350
57
  3
B6
350
58
  3
B7
350
59
  3
B8
350
5A
  3
B9
350
5B
  3
C0
350
5C
  3
C1
350
5D
  3
C2
350
5E
  3
C3
350
5F
  3
C4
350
60
  3
C5
350
61
  3
C6
350
62
  3
C7
350
63
  3
C8
350
64
  3
C9
350
65
  3
D0
350
66
  3
D1
350
67
  3
D2
350
68
  0
XRECORD
  5
B6
102
{ACAD_REACTORS
330
C
102
}
330
C
100
AcDbXrecord
280
     1
  1
DWGPROPS COOKIE
  2

  3

  4

  6

  7

  8
b.kav
  9

300
=
301
=
302
=
303
=
304
=
305
=
306
=
307
=
308
=
309
=
 40
0.0
 41
2460704.335230023
 42
2460704.335230301
  1

 90
        0
  0
LAYOUT
  5
1E
102
{ACAD_REACTORS
330
1A
102
}
330
1A
100
AcDbPlotSettings
  1

  2
none_device
  4

  6

 40
0.0
 41
0.0
 42
0.0
 43
0.0
 44
0.0
 45
0.0
 46
0.0
 47
0.0
 48
0.0
 49
0.0
140
0.0
141
0.0
142
1.0
143
1.0
 70
   688
 72
     1
 73
     0
 74
     5
  7

 75
    16
147
1.0
148
0.0
149
0.0
100
AcDbLayout
  1
Layout1
 70
     1
 71
     1
 10
0.0
 20
0.0
 11
420.0
 21
297.0
 12
0.0
 22
0.0
 32
0.0
 14
1.0000000000E+20
 24
1.0000000000E+20
 34
1.0000000000E+20
 15
-1.0000000000E+20
 25
-1.0000000000E+20
 35
-1.0000000000E+20
146
0.0
 13
0.0
 23
0.0
 33
0.0
 16
1.0
 26
0.0
 36
0.0
 17
0.0
 27
1.0
 37
0.0
 76
     0
330
1B
  0
LAYOUT
  5
26
102
{ACAD_REACTORS
330
1A
102
}
330
1A
100
AcDbPlotSettings
  1

  2
none_device
  4

  6

 40
0.0
 41
0.0
 42
0.0
 43
0.0
 44
0.0
 45
0.0
 46
0.0
 47
0.0
 48
0.0
 49
0.0
140
0.0
141
0.0
142
1.0
143
1.0
 70
   688
 72
     1
 73
     0
 74
     5
  7

 75
    16
147
1.0
148
0.0
149
0.0
100
AcDbLayout
  1
Layout2
 70
     1
 71
     2
 10
0.0
 20
0.0
 11
0.0
 21
0.0
 12
0.0
 22
0.0
 32
0.0
 14
0.0
 24
0.0
 34
0.0
 15
0.0
 25
0.0
 35
0.0
146
0.0
 13
0.0
 23
0.0
 33
0.0
 16
1.0
 26
0.0
 36
0.0
 17
0.0
 27
1.0
 37
0.0
 76
     0
330
23
  0
LAYOUT
  5
22
102
{ACAD_REACTORS
330
1A
102
}
330
1A
100
AcDbPlotSettings
  1

  2
none_device
  4
Letter_(8.50_x_11.00_Inches)
  6

 40
6.35
 41
6.35
 42
6.35000508
 43
6.35000508
 44
215.9
 45
279.4
 46
0.0
 47
0.0
 48
0.0
 49
0.0
140
0.0
141
0.0
142
1.0
143
1.0
 70
  1712
 72
     1
 73
     0
 74
     0
  7

 75
     0
147
1.0
148
0.0
149
0.0
100
AcDbLayout
  1
Model
 70
     1
 71
     0
 10
0.0
 20
0.0
 11
279.4
 21
215.9
 12
0.0
 22
0.0
 32
0.0
 14
0.0
 24
0.0
 34
0.0
 15
279.4
 25
215.9
 35
0.0
146
0.0
 13
0.0
 23
0.0
 33
0.0
 16
1.0
 26
0.0
 36
0.0
 17
0.0
 27
1.0
 37
0.0
 76
     0
330
1F
331
29
  0
MLINESTYLE
  5
18
102
{ACAD_REACTORS
330
17
102
}
330
17
100
AcDbMlineStyle
  2
Standard
 70
     0
  3

 62
   256
 51
90.0
 52
90.0
 71
     2
 49
0.5
 62
   256
  6
BYLAYER
 49
-0.5
 62
   256
  6
BYLAYER
  0
ACDBPLACEHOLDER
  5
F
102
{ACAD_REACTORS
330
E
102
}
330
E
  0
SCALE
  5
48
102
{ACAD_REACTORS
330
47
102
}
330
47
100
AcDbScale
 70
     0
300
1:1
140
1.0
141
1.0
290
     1
  0
SCALE
  5
49
102
{ACAD_REACTORS
330
47
102
}
330
47
100
AcDbScale
 70
     0
300
1:2
140
1.0
141
2.0
290
     0
  0
SCALE
  5
4A
102
{ACAD_REACTORS
330
47
102
}
330
47
100
AcDbScale
 70
     0
300
1:4
140
1.0
141
4.0
290
     0
  0
SCALE
  5
4B
102
{ACAD_REACTORS
330
47
102
}
330
47
100
AcDbScale
 70
     0
300
1:5
140
1.0
141
5.0
290
     0
  0
SCALE
  5
4C
102
{ACAD_REACTORS
330
47
102
}
330
47
100
AcDbScale
 70
     0
300
1:8
140
1.0
141
8.0
290
     0
  0
SCALE
  5
4D
102
{ACAD_REACTORS
330
47
102
}
330
47
100
AcDbScale
 70
     0
300
1:10
140
1.0
141
10.0
290
     0
  0
SCALE
  5
4E
102
{ACAD_REACTORS
330
47
102
}
330
47
100
AcDbScale
 70
     0
300
1:16
140
1.0
141
16.0
290
     0
  0
SCALE
  5
4F
102
{ACAD_REACTORS
330
47
102
}
330
47
100
AcDbScale
 70
     0
300
1:20
140
1.0
141
20.0
290
     0
  0
SCALE
  5
50
102
{ACAD_REACTORS
330
47
102
}
330
47
100
AcDbScale
 70
     0
300
1:30
140
1.0
141
30.0
290
     0
  0
SCALE
  5
51
102
{ACAD_REACTORS
330
47
102
}
330
47
100
AcDbScale
 70
     0
300
1:40
140
1.0
141
40.0
290
     0
  0
SCALE
  5
52
102
{ACAD_REACTORS
330
47
102
}
330
47
100
AcDbScale
 70
     0
300
1:50
140
1.0
141
50.0
290
     0
  0
SCALE
  5
53
102
{ACAD_REACTORS
330
47
102
}
330
47
100
AcDbScale
 70
     0
300
1:100
140
1.0
141
100.0
290
     0
  0
SCALE
  5
54
102
{ACAD_REACTORS
330
47
102
}
330
47
100
AcDbScale
 70
     0
300
2:1
140
2.0
141
1.0
290
     0
  0
SCALE
  5
55
102
{ACAD_REACTORS
330
47
102
}
330
47
100
AcDbScale
 70
     0
300
4:1
140
4.0
141
1.0
290
     0
  0
SCALE
  5
56
102
{ACAD_REACTORS
330
47
102
}
330
47
100
AcDbScale
 70
     0
300
8:1
140
8.0
141
1.0
290
     0
  0
SCALE
  5
57
102
{ACAD_REACTORS
330
47
102
}
330
47
100
AcDbScale
 70
     0
300
10:1
140
10.0
141
1.0
290
     0
  0
SCALE
  5
58
102
{ACAD_REACTORS
330
47
102
}
330
47
100
AcDbScale
 70
     0
300
100:1
140
100.0
141
1.0
290
     0
  0
SCALE
  5
59
102
{ACAD_REACTORS
330
47
102
}
330
47
100
AcDbScale
 70
     0
300
1/128" = 1'-0"
140
0.0078125
141
12.0
290
     0
  0
SCALE
  5
5A
102
{ACAD_REACTORS
330
47
102
}
330
47
100
AcDbScale
 70
     0
300
1/64" = 1'-0"
140
0.015625
141
12.0
290
     0
  0
SCALE
  5
5B
102
{ACAD_REACTORS
330
47
102
}
330
47
100
AcDbScale
 70
     0
300
1/32" = 1'-0"
140
0.03125
141
12.0
290
     0
  0
SCALE
  5
5C
102
{ACAD_REACTORS
330
47
102
}
330
47
100
AcDbScale
 70
     0
300
1/16" = 1'-0"
140
0.0625
141
12.0
290
     0
  0
SCALE
  5
5D
102
{ACAD_REACTORS
330
47
102
}
330
47
100
AcDbScale
 70
     0
300
3/32" = 1'-0"
140
0.09375
141
12.0
290
     0
  0
SCALE
  5
5E
102
{ACAD_REACTORS
330
47
102
}
330
47
100
AcDbScale
 70
     0
300
1/8" = 1'-0"
140
0.125
141
12.0
290
     0
  0
SCALE
  5
5F
102
{ACAD_REACTORS
330
47
102
}
330
47
100
AcDbScale
 70
     0
300
3/16" = 1'-0"
140
0.1875
141
12.0
290
     0
  0
SCALE
  5
60
102
{ACAD_REACTORS
330
47
102
}
330
47
100
AcDbScale
 70
     0
300
1/4" = 1'-0"
140
0.25
141
12.0
290
     0
  0
SCALE
  5
61
102
{ACAD_REACTORS
330
47
102
}
330
47
100
AcDbScale
 70
     0
300
3/8" = 1'-0"
140
0.375
141
12.0
290
     0
  0
SCALE
  5
62
102
{ACAD_REACTORS
330
47
102
}
330
47
100
AcDbScale
 70
     0
300
1/2" = 1'-0"
140
0.5
141
12.0
290
     0
  0
SCALE
  5
63
102
{ACAD_REACTORS
330
47
102
}
330
47
100
AcDbScale
 70
     0
300
3/4" = 1'-0"
140
0.75
141
12.0
290
     0
  0
SCALE
  5
64
102
{ACAD_REACTORS
330
47
102
}
330
47
100
AcDbScale
 70
     0
300
1" = 1'-0"
140
1.0
141
12.0
290
     0
  0
SCALE
  5
65
102
{ACAD_REACTORS
330
47
102
}
330
47
100
AcDbScale
 70
     0
300
1-1/2" = 1'-0"
140
1.5
141
12.0
290
     0
  0
SCALE
  5
66
102
{ACAD_REACTORS
330
47
102
}
330
47
100
AcDbScale
 70
     0
300
3" = 1'-0"
140
3.0
141
12.0
290
     0
  0
SCALE
  5
67
102
{ACAD_REACTORS
330
47
102
}
330
47
100
AcDbScale
 70
     0
300
6" = 1'-0"
140
6.0
141
12.0
290
     0
  0
SCALE
  5
68
102
{ACAD_REACTORS
330
47
102
}
330
47
100
AcDbScale
 70
     0
300
1'-0" = 1'-0"
140
12.0
141
12.0
290
     0
  0
ENDSEC
  0
EOF
